Аккорды, Текст песни группы - Гитара и ноты, Табулатуры

0
1
2
3
4
5
6
7
8
9
A
B
C
D
E
F
G
H
I
J
K
L
M
N
O
P
Q
R
S
T
U
V
W
X
Y
Z
А
Б
В
Г
Д
Е
Ж
З
И
К
Л
М
Н
О
П
Р
С
Т
У
Ф
Х
Ц
Ч
Ш
Ы
Э
Ю
Я

Cписок аккордов песен группы IMMORTAL

Pure Holocaust - 1993
		A Sign For The Norse Hordes To Ride

Riff 1:		[< F> ||--------------------------------|---------------------------------|
		< C> ||--------------------------------|---------------------------------|
		< G#>||*-------------------------------|---------------------------------|
		< D#>||*-------------------------------|---------------------------------|
		< A#>||---6----------------------3--3--|--6----------6-6-7-7-7-7-6-6-6-6-|
		< F> ||---4--0-0-0-0-0-0-1-1-1-1-3--3--|--4--0-0-0-0-4-4-5-5-5-5-4-4-4-4-|]

		|-------------------------------|----------------------------------|
		|-------------------------------|----------------------------------|
		|-------------------------------|---------------------------------*|
		|-------------------------------|---------------------------------*|
		|--6----------------------3--3--|--6----------6-6-7-7-7-7-8-8-8-8--|
		|--4--0-0-0-0-0-0-1-1-1-1-3--3--|--4--0-0-0-0-4-4-5-5-5-5-6-6-6-6--|

Riff 2:		|-----------------------------------|-----------------------------------|
		|-----------------------------------|------------------------5-5-5------|
		|*--5-5-5-5-5-5-5-5-----------------|--5-5-5-5-5-5-5-5-4-4-4-4-4-4-4-4-*|
		|*--7-7-7-7-7-7-7-7-5-5-5-5-5-5-5-5-|--7-7-7-7-7-7-7-7-6-6-6-6-6-6-6-6-*|
		|---0-0-0-0-0-0-0-0-7-7-7-7-7-7-7-7-|--0-0-0-0-0-0-0-0------------------|
		|-------------------0-0-0-0-0-0-0-0-|-----------------------------------|

!		Riff 1
!		Riff 2

Riff 3:		|----------------------------------|----------------------------------|
		|----------------------------------|----------------------------------|
		|--7-7-7-7-7-7-7-7-8-8-8-7-7-7-8-8-|--7-7-7-7-7-7-7-7-5-5-5-7-7-7-5-5-|
		|--7-7-7-7-7-7-7-7-8-8-8-7-7-7-8-8-|--7-7-7-7-7-7-7-7-5-5-5-7-7-7-5-5-|
		|--5-5-5-5-5-5-5-5-6-6-6-5-5-5-6-6-|--5-5-5-5-5-5-5-5-3-3-3-5-5-5-3-3-|
		|----------------------------------|----------------------------------|

		|-------------------------------------|----------------------------------|
		|-------------------------------------|----------------------------------|
		|--7-7-7-7-7-7-7-7-8-8-8-10-10-10-8-8-|--7-7-7-7-7-7-7-7-5-5-5-7-7-7-5-5-|
		|--7-7-7-7-7-7-7-7-8-8-8-10-10-10-8-8-|--7-7-7-7-7-7-7-7-5-5-5-7-7-7-5-5-|
		|--5-5-5-5-5-5-5-5-6-6-6-8--8--8--6-6-|--5-5-5-5-5-5-5-5-3-3-3-5-5-5-3-3-|
		|-------------------------------------|----------------------------------|

		|----------------------------------|----------------------------------|
		|----------------------------------|----------------------------------|
		|--4-4-4-4-4-4-4-4-5-5-5-4-4-4-5-5-|--4-4-4-4-4-4-4-4-5-5-5-5-5-5-5-5-|
		|--4-4-4-4-4-4-4-4-5-5-5-4-4-4-5-5-|--4-4-4-4-4-4-4-4-5-5-5-5-5-5-5-5-|
		|--2-2-2-2-2-2-2-2-3-3-3-2-2-2-3-3-|--2-2-2-2-2-2-2-2-3-3-3-3-3-3-3-3-|
		|----------------------------------|----------------------------------|

		|----------------------------------|----------------------------------|
		|----------------------------------|----------------------------------|
		|--7-7-7-7-7-7-7-7-8-8-8-7-7-7-8-8-|--7-7-7-7-7-7-7-7-5-5-5-7-7-7-5-5-|
		|--7-7-7-7-7-7-7-7-8-8-8-7-7-7-8-8-|--7-7-7-7-7-7-7-7-5-5-5-7-7-7-5-5-|
		|--5-5-5-5-5-5-5-5-6-6-6-5-5-5-6-6-|--5-5-5-5-5-5-5-5-3-3-3-5-5-5-3-3-|
		|----------------------------------|----------------------------------|

		|-------------------------------------|----------------------------------|
		|-------------------------------------|----------------------------------|
		|--7-7-7-7-7-7-7-7-8-8-8-10-10-10-8-8-|--7-7-7-7-7-7-7-7-5-5-5-7-7-7-5-5-|
		|--7-7-7-7-7-7-7-7-8-8-8-10-10-10-8-8-|--7-7-7-7-7-7-7-7-5-5-5-7-7-7-5-5-|
		|--5-5-5-5-5-5-5-5-6-6-6-8--8--8--6-6-|--5-5-5-5-5-5-5-5-3-3-3-5-5-5-3-3-|
		|-------------------------------------|----------------------------------|

!		Riff 1
!		Riff 2
!		Riff 3

Riff 4 (Ending)	|-------------------|
		|--0----------------|
		|--2----------------|
		|--4----------------|
		|--2----------------|
		|-------------------|

Аккорды, табулатуры и табы с переборами и текстами песен

Аккорды и тексты песен

Текст песни/GTP tabs/Guitar Soft/Рингтоны/mp3/DJ/Кино