Аккорды, Текст песни группы - Гитара и ноты, Табулатуры

0
1
2
3
4
5
6
7
8
9
A
B
C
D
E
F
G
H
I
J
K
L
M
N
O
P
Q
R
S
T
U
V
W
X
Y
Z
А
Б
В
Г
Д
Е
Ж
З
И
К
Л
М
Н
О
П
Р
С
Т
У
Ф
Х
Ц
Ч
Ш
Ы
Э
Ю
Я

Аккорды и текст песни Мусорный ветер - табулатура группы КРЕМАТОРИЙ

 Вступление
e|-7-----------7---5---------5---------------------------------------------
b|----5--5-7-8---------7--7-----8--5------5-8--7--4-0-4--7--7-8-7----------
g|----------------------7-------------5-7----------------------------------

e|-7-----------7---5---------5---------------------------------------------
b|----5--5-7-8---------7--7-----8--5------5-8--7--4-0-4--7--7-8-5----------
g|----------------------7-------------5-7----------------------------------


Em                  Em+F# Em+G H7
Мусоpный ветеp, дым   из   тpу-бы
Em                  Em+F# Em+G H7
Плач пpиpоды, смех   са - та - ны,
   C     C+H  Am  Am+G F#
А все от то - го, что  мы
  C   C+H Am   Am+G  F#       H        Em
Любили ло-вить вет - pа и pазбpасывать камни.

Песочный гоpод постpоенный мной
Давным-давно смыт волной,
Мой взгляд похож на твой
В нем нет ничего от любви и забытого счастья.

5------------0--
6---0--2--4-----

 Пpипев

  Am           D
  Дым на небе, дым на земле
  G              Em
  Вместо людей машины
  Am               D
  Меpтвые pыбы в иссохшей pеке,
     G              Em
  Зловонный зной пустыни
  C          C+H Am         F#
  Моя смеpть pаз-pубит цепи сна,
  H              Em
  Когда мы будем вместе.

5-----------------0--2
6---0--2--3--0--2-----


Каpтинки:

Em+F#   Em+G    C+H    Am+G
000202  000203  010020 012023

                  2-й вариант (переложение для 1-й гитары)
                  ----------------------------------------

 < Проигрыш>:
  Em                      D
--7-----0-----0-2-3-7-----5---2-----2-5-----5----- #1
------0---0-------------0---------3-------3---3---
----0-------0---------0-----2---2-------2-------2-      < ----------
--------------------------0-----------0-----------                |
--------------------------------------------------                |
--0-----------0-----------------------------------                |
  C                       H7                                      |
--3-----0---------0-3-----2-----------2-----2----- #2             |
------1---1---1-3-----1-------4-4-0-4-----0---0---                |
----0-------0-----------0---2-----------2-------2-                |
--------------------------------------------------                |
--3-----------3-----------2-----------2-----------                |
--------------------------------------------------                |
  Em                      D                                       |
--7-----0-----0-2-3-7-----5---2-----2-5-----8-7-5- Можно играть и | #1
--8---8---0-----4-5-8---8---------3-------3------- вместо этой "строки"
----0-------0---------0-----2---2-------2--------- #3
--------------------------0-----------0-----------
--------------------------------------------------
--0-----------0-----------------------------------
  C                       H7
--3-----0---------0-3-----2-----------2-----2-3-2- #4
------1---1---1-3-----1-------4-4-0-4-----0-------
----0-------0-----------0---2-----------2---------
--------------------------------------------------
--3-----------3-----------2-----------2-----------
--------------------------------------------------
  Em
--0-----0-----------------                          #5
------0---0---------------
----0-------0-------------
--------------------------
--------------2-3-2-0-----
--0-------------------3-2-

1)
  Em              C         H7
 Мусорный ветер, дым из трубы,
   Em            C       H7
 Плач природы, смех сатаны,
     C               F#
 А все от того, что мы
    C              F#
 Любили ловить ветра
        H7       Em
 И разбрасывать камни.

 [Басовый ход]
 5 -2-3-2-0-----
 6 ---------3-2- (возможны варианты)

 Песочный город, построенный мной,
 Давным-давно смыт волной.
 Мой взгляд похож на твой:
 В нем нет ничего, кроме снов
 И забытого счастья.

Припев:
 -0-2-3-  - указательный   Hебольшой заход в припев :)
 -------
 -------
 -------
 -------
 -0-2-3-  - большой палец

  Am7          D
 Дым на небе, дым на земле,
   G       Hm    Em
 Вместо людей машины.
  Am7             D
 Мертвые рыбы в усохшей реке,
     G       Hm     Em
 Зловонный зной пустыни.
  Am                        F#
 Моя смерть разрубит цепи сна,
  H7              Em
 Когда мы будем вместе.

 Проигрыш
2)
 Ты умна, а я - идиот,
 Hеважно, кто из нас раздает,
 Даже если мне повезет,
 И в моей руке будет туз - то в твоей будет джокер.
 [Басовый ход]
 Так не бойся милая - ляг на снег,
 Слепой художник напишет портрет,
 Воспоет твои формы поэт,
 И станет звездою актер бродячего цирка.
 Припев
 Проигрыш : #3 #4 #5 + флажолет на 12 ладу по вкусу :)

Аккорды, табулатуры и табы с переборами и текстами песен

Аккорды и тексты песен

Текст песни/GTP tabs/Guitar Soft/Рингтоны/mp3/DJ/Кино