Аккорды, Текст песни группы - Гитара и ноты, Табулатуры

0
1
2
3
4
5
6
7
8
9
A
B
C
D
E
F
G
H
I
J
K
L
M
N
O
P
Q
R
S
T
U
V
W
X
Y
Z
А
Б
В
Г
Д
Е
Ж
З
И
К
Л
М
Н
О
П
Р
С
Т
У
Ф
Х
Ц
Ч
Ш
Ы
Э
Ю
Я

Аккорды и текст песни Full Nelson группы LIMP-BIZKIT

Full Nelson

INTRO:		[e|-----------------------------------------|
		B|-----------------------------------------|
		G|----------------------------------0------|
		D|---5-4----------5-5-4-------------0------|
		A|--------4-4-4----------4-4-4-4-----------|
		E|--------2-2-2----------2-2-2-2-----------|]

CHORUS:		[e|-----------------------------------------|
		B|-----------------------------------------|
		G|-----------------------------------------|
		D|--------2-4-2-----2--4-2-2-2-------------|
		A|--4-4---0-2-0--4--0--2-0-0-0--4----------|
		E|--2-2----------2--------------2----------|]

BRIDGE:		"we got the fire to burn"
		[e|-----------------------------------------|
		B|-----------------------------------------|
		G|-----------------------------------------|
		D|-----------------------------------------|
		A|--5-4-4-4--5-4-4-4--5-4-4-4--5-4-4-4-----|
		E|--3-2-2-2--3-2-2-2--3-2-2-2--3-2-2-2-----|]

-

!		Intro
		[E----15--14-14------------------15-15--14-14-------------------
		B--------------------------------------------------------------
		F#---13--12-12---13--0-12-0-----13-13--12-12----13-13--12--0---
		F#---------------13--0-12-0---------------------13-13--12--0---]

!		Verse (0:25)
		[E--------------------------------------------------------------
		B--------------------------------------------------------------
		F#-------------------------------------------------------------
		F#---12--12-12-12--12-12-12--12-12-12--12-12-13-13--12---------]

!		Chorus (0:44)
		[E--------------------------------------------------------------
		B--------------------------------------------------------------
		F#---0--0----5--3--4----3--5--3-0----3--5--3-0---0-3-5---------
		F#---0--0---------------3--5--3-0----3--5--3-0---0-3-5---------]
!		             ^  ^  ^
!		             harmonics

!		Interlude (2:21)
!		                      x3
		[E----------------------|---------------------------------------
		B----------------------|---------------------------------------
		F#---0--0--0-12--0-----|-----0--0-----0--0---------------------
		F#---0--0--0-12--0-----|-----0--0--x--0--0---------------------]
!		P.M. - - - - - - - - - - - - - - - - - - - - - - - - - - - - -

!		Breakdown (2:40)
		[E----------------------|---------------------------------------
		B----------------------|---------------------------------------
		F#---0--0--0-12--0-----|-----0--0-----0--0---------------------
		F#---0--0--0-12--0-----|-----0--0--x--0--0---------------------]

Аккорды, табулатуры и табы с переборами и текстами песен

Текст песни/GTP tabs/Guitar Soft/Рингтоны/mp3/DJ/Кино