Аккорды, Текст песни группы - Гитара и ноты, Табулатуры

0
1
2
3
4
5
6
7
8
9
A
B
C
D
E
F
G
H
I
J
K
L
M
N
O
P
Q
R
S
T
U
V
W
X
Y
Z
А
Б
В
Г
Д
Е
Ж
З
И
К
Л
М
Н
О
П
Р
С
Т
У
Ф
Х
Ц
Ч
Ш
Ы
Э
Ю
Я

Аккорды и текст песни One Step Closer группы LINKIN-PARK

One Step Closer

!		Actually, it’s played like this
		[Ab--------7-----------3------
		Db-0-H5--0-----8-H7--0------------]
!		with the H meaning Natural Harmonics.
!		and the verse is like this
		[Eb-----------------------------
		Bb-----------------------------
		Gb--------9------------5---------
		Db------X-X----------X-X-------------
		Ab-0-0--X-7----8-7---x-3----------------
		Db-0-0--X------8-7---X----------------]
!		Jeff
!		Satorian wrote:
!		I"ve got question/correction regarding the main riff. In my opinion the
!		intro played like,
		[G# --5---7--------------
		C# -0--0----8-7--0-3---]
!		the way most tabs have got it, sounds right to me, but I think the
!		main/chorus riff goes like
		[F# --------7-9~-------------10~---------
		C# -0-0---7-9~----8-7---0-10~---------
		G# -0-0---5-7~----8-7---0-8~----------
		C# -0-0------------8-7---0--------------]
!		What do you think?

-

!		Tuning: C, G, C, F, A, D
!		* = Harmonic
!		pm = Palm Mute
!		Intro
		[D -----------------------------------------------
		A -----------------------------------------------
		F -----------------------------------------------
		C -----------------------------------------------
		G ---------*7-----------------------------------
		C 0--*5-0-----8-7--0-3-------------------------]
!		pm pm pm
!		Verse
		[D -----------------------------------------------
		A -----------------------------------------------
		F --------9--------5-----------------------------
		C 0-0--0--x--8-7---x----------------------------
		G 0-0--0--7--8-7---3----------------------------
		C 0-0--0-----8-7-0------------------------------]
!		Bridge 1
		[D ----------------------------------------------------
		A ----------------------------------------------------
		F ----------------------------------------------------
		C 5-5---x-x---x-5-5---x-x---x-5-5--x-x---x-----------
		G 5-5---x-x---x-5-5---x-x---x-5-5--x-x---x-----------
		C 5-5---x-x---x-5-5---x-x---x-5-5--x-x---x-----------]
!		Bridge 2
		[D ------------------------------------*5-*5-*5--------
		A ---------------------------------*5------------------
		F -----------------------------------------------------
		C 5-5---x-x---x-5-5---x-x---x-5-5---------------------
		G 5-5---x-x---x-5-5---x-x---x-5-5---------------------
		C 5-5---x-x---x-5-5---x-x---x-5-5---------------------]
!		Chorus
		[D --------------------------------------------------------------
		A --------------------------------------------------------------
		F --------------------------------------------------------------
		C 0--0--12-12--10-10--7---8-8--5-5--7-7--3-3---1-1-1-1-1-1-1
		G 0--0--12-12--10-10--7---8-8--5-5--7-7--3-3---1-1-1-1-1-1-1
		C 0--0--12-12--10-10--7---8-8--5-5--7-7--3-3---1-1-1-1-1-1-1]
!		(last time only)
!		Other Part
		[D ---------------------------------------------
		A ---------------------------------------------
		F ---------------------------------------------
		C 1-0---0-0---0---1-3-0-0--6\\------0-0-0-----
		G 1-0---0-0---0---1-3-0-0--6\\------0-0-0-----
		C 1-0---0-0---0---1-3-0-0--6\\------0-0-0-----]
!		pm...... (second time only)

-

Text:		I cannot take this anymore
		I’m saying everything I"ve said before
		All these words they make no sense
		I find bliss in ignorance
		Less I hear the less you"ll say
		But you"ll find that out anyway
		Just like before...

		Everything you say to me
		Takes me one step closer to the edge
		And I’m about to break
		I need a little room to breathe
		Cause I’m one step closer to the edge
		And I’m about to break

		I find the answers aren’t so clear
		Wish I could find a way to disappear
		All these thoughts they make no sense
		I find bliss in ignorance
		Nothing seems to go away
		Over and over again
		Just like before...

!		Припев } 2x

		shut up when I’m talking to you

!		Припев } 2x
Текст песни/GTP tabs/Guitar Soft/Рингтоны/mp3/DJ/Кино